  0
SECTION
  2
HEADER
  9
$ACADVER
  1
AC1009
  9
$EXTMIN
 10
0.0
 20
0.0
 30
0.0
  9
$EXTMAX
 10
1000.0
 20
1000.0
 30
0.0
  9
$FILLMODE
 70
 0
  9
$SPLFRAME
 70
 1
  0
ENDSEC
  0
SECTION
  2
TABLES
  0
TABLE
  2
LAYER
 70
1
  0
LAYER
  2
0
 70
     0
 62
     7
  6
CONTINUOUS
  0
ENDTAB
  0
ENDSEC
  0
SECTION
  2
ENTITIES
  0
LINE
  8
0
 62
     0
 10
0.292969
 20
0.00488281
 30
0.0
 11
0.443251
 21
0.128309
 31
0.0
  0
LINE
  8
0
 62
     0
 10
0.443251
 20
0.128309
 30
0.0
 11
0.587294
 21
0.768772
 31
0.0
  0
LINE
  8
0
 62
     0
 10
0.587294
 20
0.768772
 30
0.0
 11
0.593533
 21
5.31353
 31
0.0
  0
LINE
  8
0
 62
     0
 10
0.593533
 20
5.31353
 30
0.0
 11
0.549696
 21
5.49104
 31
0.0
  0
LINE
  8
0
 62
     0
 10
0.549696
 20
5.49104
 30
0.0
 11
0.487088
 21
5.51417
 31
0.0
  0
LINE
  8
0
 62
     0
 10
0.487088
 20
5.51417
 30
0.0
 11
0.430718
 21
5.40614
 31
0.0
  0
LINE
  8
0
 62
     0
 10
0.430718
 20
5.40614
 30
0.0
 11
0.161404
 21
3.69319
 31
0.0
  0
LINE
  8
0
 62
     0
 10
0.161404
 20
3.69319
 30
0.0
 11
0.0298936
 21
2.28885
 31
0.0
  0
LINE
  8
0
 62
     0
 10
0.0298936
 20
2.28885
 30
0.0
 11
0.00488281
 21
1.22401
 31
0.0
  0
LINE
  8
0
 62
     0
 10
0.00488281
 20
1.22401
 30
0.0
 11
0.0424262
 21
0.544976
 31
0.0
  0
LINE
  8
0
 62
     0
 10
0.0424262
 20
0.544976
 30
0.0
 11
0.105089
 21
0.19005
 31
0.0
  0
LINE
  8
0
 62
     0
 10
0.105089
 20
0.19005
 30
0.0
 11
0.224067
 21
0.0125868
 31
0.0
  0
LINE
  8
0
 62
     0
 10
0.224067
 20
0.0125868
 30
0.0
 11
0.292969
 21
0.00488281
 31
0.0
  0
ENDSEC
  0
EOF
